InfoNu.nl > Muziek en Film > Instrumenten > Basis gitaar akkoorden en hoe moet je tablatuur lezen?

Basis gitaar akkoorden en hoe moet je tablatuur lezen?

Basis gitaar akkoorden en hoe moet je tablatuur lezen? Tablatuur of tabulatuur is een manier om gitaarmuziek op de computer te laten zien. Het is redelijk eenvoudig te lezen, maar je zult dit artikel moeten lezen om het te snappen. Ook komen er een paar symbolen in voor die wel lastig te begrijpen zijn. De basis akkoorden worden ook duidelijk uitgelegd. Voordat u verder gaat wil ik u graag een tip doen. Als u een goede cursus gitaar leren spelen wilt volgen krijgt u er op de volgende site ook nog eens een gratis gitaar bij!: Cursus Gitaar spelen : Vraag nu aan!

De snaren

Hier onder zie je een lege tab-regel zoals het overal op het internet staat:

e---------------------------------------------------------------
B----------------------------------------------------------------
G----------------------------------------------------------------
D----------------------------------------------------------------
A----------------------------------------------------------------
E----------------------------------------------------------------

Het stelt als het ware je gitaar voor zoals je er vanuit je oogpunt naar kijkt. De dikke snaar die onderaan staat is de E, de bovenste e is de dunste snaar. Als je je gitaar erbij pakt is het van de dikste naar de dunste snaar: E A D G B E. Een ezelsbruggetje om dat te onthouden is: Een Aap Die Geen Bananen Eet.

Basisnoten

Hier zie je een regel met noten erop:

e-----4-------------------------------------------------0-----------------------------------------------
B------------5---------------------0-------------------2------------------------------------------8----
G-------------------------------------------------------2-------------------------------------------------
D-----------------------4--------------------8---------2---------------3-4-----------------------------
A---------------------------------------------8---------0-------------------------------------------------
E---------------------------------------------------------------------------------------------------------

Zo, nu beginnen we eindelijk met een echt tab. Je leest een tab altijd van links naar rechts.
Normale noten
De eerste noot die je tegen komt is de 4 op de dunne e-snaar. Je speelt dus de e-snaar op de 4e fret(vakje) van je gitaar. De volgende noot die je tegen komt is de 5 op de B snaar. Daarna moet je de 4 op de D-snaar spelen.
Open snaren
En dan kom je de 0 tegen op de B snaar. Een 0 wil zeggen dat je de snaar open moet spelen: nergens je vinger op leggen, maar alleen aanslaan.
Dubbele noten
En dan zie je een 8 op de D en een 8 op de A onderelkaar staan. Als er meerdere noten onderelkaar staan dan moet je ze tegelijkertijd spelen! Dus hier moet je de D en de A tegelijkertijd op de 8e fret tegelijk aanslaan.
Akkoorden
Daarna zie je een aantal cijfers onder elkaar. Dit is een A-akkoord. Je moet de e-snaar en de A-snaar open aanslaan, en de B, G en de D-snaar op de 2 fret. Dit doe je tegelijkertijd in 1 beweging. Meer akkoorden en hoe je ze moet spelen vind je onderin dit artikel.
Snelheid
Je kan zien hoe snel de noten achter elkaar moeten aan de ruimte tussen de noten. Je ziet een 3 en een 4 die snel achter elkaar moeten worden gespeeld op de D-snaar. Dan na een tijdje moet de laatste 8 op de B-snaar pas worden gespeeld.

PM, Slide, Hammer-on en pull-offs

Hier zie je een tab met verschillende symbolen.

e-------------------------------3p0------------------------------------
B--------------------6h7------------------------------------------------
G--------------------------------------------------------------------
D-------------9/7-----------------------------------------------------
A-------------------------------------------------------------------
E-----6---------------------------------------------------------------
PM------

Onderaan zie je nu PM staan. PM staat voor PalmMute oftewel palmdempen.
De 9/7 is een slide van de 9 naar de 7.
De 6h7 staat voor een hammer-on van de naar de 7.
De 3p0 staat voor een pull-off van de 3e fret.
Hoe je deze speelt staat uitgelegt in dit artikel: Hammer-on, pull-off, slides en palm-mutes op je gitaar

Overige symbolen

Bend en Release bend

e----------------------------------------------------------------------------------------
B------6b8---8r6-----------------------------------------------------------------------
G----------------------------------------------------------------------------------------
D----------------------------------------------------------------------------------------
A----------------------------------------------------------------------------------------
E----------------------------------------------------------------------------------------

Hier moet je de B-snaar op de 6 aanslaan en dan de snaar omhoog drukken richting de dunne e-snaar zodat deze klinkt als een 8. Je slaat hem maar 1 keer aan dus. De 8r6 betekent dat je de snaar die nog omhooggedrukt is nu moet aanslaan en weer moet terugduwen naar zijn oorspronkelijke positie: de normale 6. Ook deze sla je maar 1 keer aan.

Akkoorden?

Een akkoord is een reeks noten die je in één keer aanslaat door je vingers op bepaalde vakjes van je gitaar te zetten. Je zet je vingers op de vakjes en drukt ze stevig in en slaat de noten aan die je moet aanslaan in één vloeiende beweging. Als het goed is hoor je dan een harde, mooie klank. Er zijn tientallen akkoorden, maar ik leg hier de meest gebruikte en basis akkoorden uit.

Ik geef tussen haakjes aan welke vinger je erop moet leggen. De snaren zonder cijfer worden niet gespeeld. Als er een 0 staat moet deze open gespeeld worden.

A

e----------0--------------------
B----------2----(Middel)----------
G----------2----(Middel)-------
D----------2----(Middel)----------
A----------0---------------------
E---------------------------------


(Middelvinger over B, G en D leggen en aandrukken)

B

e--------2-----(Wijs)----------------
B--------3-----(Pink)-----------------
G--------3-----(Ring)----------------
D--------3-----(Middel)--------------
A--------0-----------------------------
E--------------------------------------


C

e----------0 ----------------------------
B----------1-----(Wijs)----------------
G----------0----------------------------
D----------2-----(Middel)--------------
A----------3-----(Ring)----------------
E---------------------------------------


D

e----------2------(Middel)--------
B----------3------(Ring)----------
G----------2------(Wijs)----------
D----------0------------------------
A-----------------------------------
E-----------------------------------


E

e-------0-------------------------------
B-------0-------------------------------
G-------1------(Wijs)------------------
D-------2------(Ring)------------------
B-------2-------(Middel)---------------
E-------0--------------------------------


F

e---------1-----(Wijs)-------------------
B---------1-----(Wijs)-------------------
G---------2-----(Middel)-----------------
D---------3-----(Ring)-------------------
B------------------------------------------
E------------------------------------------


G

e---------3--(Pink)--------------------
B---------0------------------------------
G---------0------------------------------
D---------0------------------------------
A---------2---(Wijs)---------------------
E---------3---(Middel--------------------


Dat waren de basisakkoorden. Voor meer akkoorden kun je op de volgende site kijken: Klik hier
© 2008 - 2014 Sanpaulo, het auteursrecht van dit artikel ligt bij de infoteur. Zonder toestemming van de infoteur is vermenigvuldiging verboden.
Gerelateerde artikelen
Gitaar InformatieGitaar InformatieGitaren worden veel bespeeld, daarom wat uitleg over soorten stemmingen en geschiedenis van de gitaar.
Tabs - voor gitaar en basTABS zijn een soort codering van grepen, snaren, en fretten op een gitaar of basgitaar. Met TABS kunnen we makkelijk ons…
Wat voor gitaar moet je kopen om mee te beginnen?Wat voor gitaar moet je kopen om mee te beginnen?Veel mensen die willen beginnen met gitaar spelen hebben geen idee wat voor gitaar ze mee moeten beginnen. Hier kun je l…
Een elektrische gitaar kopenEen elektrische gitaar kopenHeeft u altijd al gitaar willen spelen en heeft u er eindelijk voor gekozen om een elektrische gitaar te kopen? Kijk dan…
Leren gitaar spelenLeren gitaar spelenEen muziekinstrument spelen is fantastisch. Veel mensen vinden dat dit een deel is van een goede opvoeding. De gitaar le…

Reageer op het artikel "Basis gitaar akkoorden en hoe moet je tablatuur lezen?"

Plaats een reactie, vraag of opmerking bij dit artikel. Reacties moeten voldoen aan de huisregels van InfoNu.
Meld mij aan voor de tweewekelijkse InfoNu nieuwsbrief
Reacties

Steven, 29-08-2012 03:37 #11
Kan je bij B-Akkoord ook zo spelen?

e--------2-----(Wijs)----------------
B--------3-----(Middel)--------------
G--------3-----(Middel)--------------
D--------3-----(Middel)--------------
A--------0-----------------------------
E--------------------------------------

H. Kooiman, 28-05-2012 11:46 #10
Heeft Eddy Knapen met zijn gehandicapt linkerhand nog zo'n appaatje gevonden?
Ik heb daar ook intersse in.
Zie Item #7

Anoniem, 28-10-2011 20:30 #9
Hoi,
Ik heb een vraag… Ik vraag me af hoe je de D# en de Eb in tabulatuur laat zien?
Kan iemand laten zien hoe dat eruit ziet?

Miniee, 18-08-2011 20:52 #8
Heel erg bedankt! Ik snapte er eerst helemaal niks van, heb ook nog op andere sites gekeken voordat ik deze tegenkwam en ik kwam er maar niet uit, maar nu snap ik het! heel goed uitgelegd!

Knapen Eddy, 28-12-2010 16:11 #7
Hallo
Ik mis aan mijn linkerhand mijn vingertopjes van de ring- en middenvinger (cirkelzaag)
Bestaat er een apparaatje om toch gitaat te kunnen spelen zonder dat ik deze twee vingers hoef te gebruiken
Of een soort handschoen of hulpmiddeltje dat ik deze twee vingers toch kan gebruiken, ik mis ongeveer 1 cm van de vingertoppen en daardopor kan ik de nagels niet kort knippen
help mij aub
Eddy

Tonnie van den Heuvel, 09-12-2010 15:15 #6
Zo dat ziet er goed uit kunnen we akltijd nog iets van opsteken :-p

Dirkobbes, 18-10-2010 15:41 #5
Wat doe je met de dikke e snaar bij model A.Afstoppen met de duim of mee laten klinken?

V., 29-06-2010 15:53 #4
Dit is echt heel handig, ik snapte tablatuur eerst niet zo goed,
maar nu wel! Goed uitleg!

Naamloos!, 02-04-2010 16:22 #3
Ik snap de E en A akkoorden wel, die heeft iemand op youtube uitgelegd. maar dan snap ik niet meer de rest van de akkoorden.
en hier snap ik al helemaal niks meer van!

Lisa, 21-08-2008 15:13 #2
Dit heeft me best wel veel geholpen met gitaarspelen alleen zelf wil ik allemaal liedjes kunnen spelen die een beetje onmogelijk zijn. En toch heef het me veel geholpen dus bedankt. Alleen vraag ik me nu af hoe je bijv. e mineur moet spelen ofzo of een ander akkoord met ja. mineur dus. nouja, wel duidelijke uitleg.

Leo, 02-06-2008 21:35 #1
Bij de uitleg van de akkoorden ontbreekt de A snaar, deze wordt B genoemd. Voor beginners (zoals mij) is dit erg verwarrend :)

En hoe kun je de A akkoord spelen? Ik krijg niet alle drie mijn vingers in hetzelfde vakje gepropt… Reactie infoteur, 02-06-2008
Mischien is er iets mis met uw internetprogramma?
Ik zie het volgende staan:

A
e----------0--------------------
B----------2----(Ring)----------
G----------2----(Middel)-------
D----------2----(Wijs)----------
B----------0---------------------
E---------------------------------

Dit betekent dat u de dunne e-snaar open moet aanslaan. Uw ringvinger op het 2e vakje van de B-snaar moet doen. Uw Middelvinger op het 2e vakje van de G-snaar. Uw Wijsvinger op het tweede vakje van de D-snaar en de B-snaar open.

Infoteur: Sanpaulo
Rubriek: Muziek en Film
Subrubriek: Instrumenten
Reacties: 11
Schrijf mee!