InfoNu.nl > Muziek en Film > Instrumenten > Hammer-on, pull-off, slides en palm-mutes op je gitaar

Hammer-on, pull-off, slides en palm-mutes op je gitaar

In veel liedjes komen special technieken voor: Hammer-on, pull-off, slides en palm-mutes. Veel mensen weten niet hoe je ze moet spelen en daarom leg ik dat hier uit.

Hammer-on

Hier zie je een tab met hammer-ons :

E----------------------------------------------------------------
B----------------------------------------------------------------
G----------------------------------------------------------------
D----------------------------------------------------------------
A---------2h3-----------4h6-----------------------------------
E----------------------------------------------------------------

De '2h3' is de eerste hammer-on. De bedoeling is dat je je de A-snaar aanslaat op het 2e vakje van boven(de fret). Dan duw je fors je andere vinger op de A-snaar op de 3e fret zonder de snaar opnieuw aan te slaan. Je slaat de snaar dus maar 1 keer aan maar krijgt twee klanken. Soms krijg je een heel reeks hammer-ons en pull-offs achter elkaar. Bij de '4h6' moet je de A-snaar op de 4e fret aanslaan en dan met een andere vinger de 6e fret indrukken, die je niet opnieuw aanslaat.

Pull-off

Hier ze je een tab met pull-offs.

E----------------------------------------------------------------
B----------------------------------------------------------------
G----------------------------------------------------------------
D----------------------------------------------------------------
A---------3p0-----------9p0-----------------------------------
E----------------------------------------------------------------

De '3p0' is de eerste pull-off. Je slaat de A-snaar aan op de 3e fret en laat deze los en zorg dat je een beetje aan de snaar blijft haken doordat je de snaar met een beetje trekkende beweging los laat. Je krijgt nu dus 2 klanken, terwijl je de snaar maar 1 keer aanslaat. Bij '9p0' sla je de A-snaar aan op de 9e fret en laat je de snaar los met een pull-off, dezelfde trekkende beweging als bij de eerste pull-off. Ook hier sla je de snaar maar één keer aan terwijl je twee klanken krijgt.

Slides

Hier zie je een tab met twee slides.

E----------------------------------------------------------------
B------------------------------------------------8/6------------
G----------------------------------------------------------------
D----------------------------------------------------------------
A------------6/7------------------------------------------------
E----------------------------------------------------------------

Bij de eerste slide, de 6/7 is het de bedoeling dat je de A-snaar aanslaat op de 6e fret en dan je vinger ingedrukt naar boven schuift tot je de 7 indrukt. Je slaat de snaar maar één keer aan en daarna niet meer dus. Bij de 8/6 doe je ongeveer hetzelfde maar dan omlaag. Je drukt de B-snaar in op de 8, slaat deze aan en je schuift je vinger naar beneden tot je de 6 indrukt.

Palm-mute

Palm-mute ,oftewel palmdempen, is een techniek waarbij je de noot als het ware dempt met je palm.
In de volgende tab zie je onderaan PM staan dat voor palmdemping staat. Waar puntjes staan of streepjes moet je dempen, of zoals bij deze een streep, dus alle noten dempen.

E------------------------------------------------------------------
B------------------------------------------------------------------
G----------------6------------------8-----------------------------
D------------8----------8-----------------------------------------
A------------------------------------------------------------------
E------------------------------------------------------------------
PM___________________________________________

Een palm-mute is niet heel moeilijk om te spelen, maar je moet het wel een beetje oefenen. Je legt je rechterhand op de snaren(als je rechtshandig speelt) helemaal onderaan waar ze aan het balkje vastgemaakt zijn. Met je linkerhand druk je de D-snaar in op de 8e fret. Je slaat nu de snaar aan terwijl je met je rechterpalm een beetje op de snaren drukt, waardoor de toon van de snaar als het goed is een beetje dof klinkt.
© 2008 - 2017 Sanpaulo, het auteursrecht van dit artikel ligt bij de infoteur. Zonder toestemming van de infoteur is vermenigvuldiging verboden.
Gerelateerde artikelen
Basis gitaar akkoorden en hoe moet je tablatuur lezen?Tablatuur of tabulatuur is een manier om gitaarmuziek op de computer te laten zien. Het is redelijk eenvoudig te lezen,…
Tabs - voor gitaar en basTABS zijn een soort codering van grepen, snaren, en fretten op een gitaar of basgitaar. Met TABS kunnen we makkelijk ons…
Kinderliedjes: PalmpasenKinderliedjes: PalmpasenBinnen de Katholieke-, Orthodoxe- en Protestantse Kerk wordt de zondag voorafgaande aan Pasen, Palmzondag genoemd. Veel…
De Palm, koningin in het plantenrijkDe Palm, koningin in het plantenrijkDe palm is al vaker de koningin van het plantenrijk genoemd. Maar zelden dat iemand een van de vele palmsoorten niet moo…
Verdere tabulatuur en technieken voor gitaarVerdere tabulatuur en technieken voor gitaarHeeft u tabulatuur leren lezen maar staan er allerlei tekens en technieken in die u niet snapt? Hierin staan alle tekens…

Reageer op het artikel "Hammer-on, pull-off, slides en palm-mutes op je gitaar"

Plaats als eerste een reactie, vraag of opmerking bij dit artikel. Reacties moeten voldoen aan de huisregels van InfoNu.
Meld mij aan voor de tweewekelijkse InfoNu nieuwsbrief
Infoteur: Sanpaulo
Laatste update: 24-05-2008
Rubriek: Muziek en Film
Subrubriek: Instrumenten
Schrijf mee!