Basis gitaar akkoorden en hoe moet je tablatuur lezen?

Tablatuur of tabulatuur is een manier om gitaarmuziek op de computer te laten zien. Het is redelijk eenvoudig te lezen, maar je zult dit artikel moeten lezen om het te snappen. Ook komen er een paar symbolen in voor die wel lastig te begrijpen zijn. De basis akkoorden worden ook duidelijk uitgelegd.

De snaren

Hier onder zie je een lege tab-regel zoals het overal op het internet staat:

e---------------------------------------------------------------
B----------------------------------------------------------------
G----------------------------------------------------------------
D----------------------------------------------------------------
A----------------------------------------------------------------
E----------------------------------------------------------------

Het stelt als het ware je gitaar voor zoals je er vanuit je oogpunt naar kijkt. De dikke snaar die onderaan staat is de E, de bovenste e is de dunste snaar. Als je je gitaar erbij pakt is het van de dikste naar de dunste snaar: E A D G B E. Een ezelsbruggetje om dat te onthouden is: Een Aap Die Geen Bananen Eet.

Basisnoten

Hier zie je een regel met noten erop:

e-----4-------------------------------------------------0-----------------------------------------------
B------------5---------------------0-------------------2------------------------------------------8----
G-------------------------------------------------------2-------------------------------------------------
D-----------------------4--------------------8---------2---------------3-4-----------------------------
A---------------------------------------------8---------0-------------------------------------------------
E---------------------------------------------------------------------------------------------------------

Zo, nu beginnen we eindelijk met een echt tab. Je leest een tab altijd van links naar rechts.

Normale noten

De eerste noot die je tegen komt is de 4 op de dunne e-snaar. Je speelt dus de e-snaar op de 4e fret(vakje) van je gitaar. De volgende noot die je tegen komt is de 5 op de B snaar. Daarna moet je de 4 op de D-snaar spelen.

Open snaren

En dan kom je de 0 tegen op de B snaar. Een 0 wil zeggen dat je de snaar open moet spelen: nergens je vinger op leggen, maar alleen aanslaan.

Dubbele noten

En dan zie je een 8 op de D en een 8 op de A onderelkaar staan. Als er meerdere noten onderelkaar staan dan moet je ze tegelijkertijd spelen! Dus hier moet je de D en de A tegelijkertijd op de 8e fret tegelijk aanslaan.

Akkoorden

Daarna zie je een aantal cijfers onder elkaar. Dit is een A-akkoord. Je moet de e-snaar en de A-snaar open aanslaan, en de B, G en de D-snaar op de 2 fret. Dit doe je tegelijkertijd in 1 beweging. Meer akkoorden en hoe je ze moet spelen vind je onderin dit artikel.

Snelheid

Je kan zien hoe snel de noten achter elkaar moeten aan de ruimte tussen de noten. Je ziet een 3 en een 4 die snel achter elkaar moeten worden gespeeld op de D-snaar. Dan na een tijdje moet de laatste 8 op de B-snaar pas worden gespeeld.

PM, Slide, Hammer-on en pull-offs

Hier zie je een tab met verschillende symbolen.

e-------------------------------3p0------------------------------------
B--------------------6h7------------------------------------------------
G--------------------------------------------------------------------
D-------------9/7-----------------------------------------------------
A-------------------------------------------------------------------
E-----6---------------------------------------------------------------
PM------

Onderaan zie je nu PM staan. PM staat voor PalmMute oftewel palmdempen.
De 9/7 is een slide van de 9 naar de 7.
De 6h7 staat voor een hammer-on van de naar de 7.
De 3p0 staat voor een pull-off van de 3e fret.
Hoe je deze speelt staat uitgelegt in dit artikel: Hammer-on, pull-off, slides en palm-mutes op je gitaar

Overige symbolen

Bend en Release bend

e----------------------------------------------------------------------------------------
B------6b8---8r6-----------------------------------------------------------------------
G----------------------------------------------------------------------------------------
D----------------------------------------------------------------------------------------
A----------------------------------------------------------------------------------------
E----------------------------------------------------------------------------------------

Hier moet je de B-snaar op de 6 aanslaan en dan de snaar omhoog drukken richting de dunne e-snaar zodat deze klinkt als een 8. Je slaat hem maar 1 keer aan dus. De 8r6 betekent dat je de snaar die nog omhooggedrukt is nu moet aanslaan en weer moet terugduwen naar zijn oorspronkelijke positie: de normale 6. Ook deze sla je maar 1 keer aan.

Akkoorden?

Een akkoord is een reeks noten die je in één keer aanslaat door je vingers op bepaalde vakjes van je gitaar te zetten. Je zet je vingers op de vakjes en drukt ze stevig in en slaat de noten aan die je moet aanslaan in één vloeiende beweging. Als het goed is hoor je dan een harde, mooie klank. Er zijn tientallen akkoorden, maar ik leg hier de meest gebruikte en basis akkoorden uit.

Ik geef tussen haakjes aan welke vinger je erop moet leggen. De snaren zonder cijfer worden niet gespeeld. Als er een 0 staat moet deze open gespeeld worden.

A

e----------0--------------------
B----------2----(Middel)----------
G----------2----(Middel)-------
D----------2----(Middel)----------
A----------0---------------------
E---------------------------------


(Middelvinger over B, G en D leggen en aandrukken)

B

e--------2-----(Wijs)----------------
B--------3-----(Pink)-----------------
G--------3-----(Ring)----------------
D--------3-----(Middel)--------------
A--------0-----------------------------
E--------------------------------------


C

e----------0 ----------------------------
B----------1-----(Wijs)----------------
G----------0----------------------------
D----------2-----(Middel)--------------
A----------3-----(Ring)----------------
E---------------------------------------


D

e----------2------(Middel)--------
B----------3------(Ring)----------
G----------2------(Wijs)----------
D----------0------------------------
A-----------------------------------
E-----------------------------------


E

e-------0-------------------------------
B-------0-------------------------------
G-------1------(Wijs)------------------
D-------2------(Ring)------------------
B-------2-------(Middel)---------------
E-------0--------------------------------


F

e---------1-----(Wijs)-------------------
B---------1-----(Wijs)-------------------
G---------2-----(Middel)-----------------
D---------3-----(Ring)-------------------
B------------------------------------------
E------------------------------------------


G

e---------3--(Pink)--------------------
B---------0------------------------------
G---------0------------------------------
D---------0------------------------------
A---------2---(Wijs)---------------------
E---------3---(Middel--------------------


Dat waren de basisakkoorden. Voor meer akkoorden kun je op de volgende site kijken: Klik hier
© 2008 - 2021 Sanpaulo, het auteursrecht van dit artikel ligt bij de infoteur. Zonder toestemming is vermenigvuldiging verboden. Per 2021 gaat InfoNu verder als archief, artikelen worden nog maar beperkt geactualiseerd.
Gerelateerde artikelen
Tabs - voor gitaar en basTABS zijn een soort codering van grepen, snaren, en fretten op een gitaar of basgitaar. Met TABS kunnen we makkelijk ons…
Online gratis gitaar akkoorden en bladmuziek voor de gitaarOnline gratis gitaar akkoorden en bladmuziek voor de gitaarOp het internet zijn veel websites te vinden die gratis bladmuziek voor de gitaar aanbieden. In dit artikel vind je een…
Gitaar: Het BluesschemaBlues muziek is één van de oudste muziekvormen van Amerika en heeft andere muziekgenres als rock ín roll, rock en jazz o…

De rechte fluit: geschiedenis, bouw en het bespelenEen rechte fluit, is een type fluit die bespeeld wordt door de lippen aan de opening van de bovenkant van de pijp te pla…
Hammer-on, pull-off, slides en palm-mutes op je gitaarIn veel liedjes komen special technieken voor: Hammer-on, pull-off, slides en palm-mutes. Veel mensen weten niet hoe je…
Reactie

Leo, 02-06-2008
Bij de uitleg van de akkoorden ontbreekt de A snaar, deze wordt B genoemd. Voor beginners (zoals mij) is dit erg verwarrend :)

En hoe kun je de A akkoord spelen? Ik krijg niet alle drie mijn vingers in hetzelfde vakje gepropt… Reactie infoteur, 02-06-2008
Mischien is er iets mis met uw internetprogramma?
Ik zie het volgende staan:

A
e----------0--------------------
B----------2----(Ring)----------
G----------2----(Middel)-------
D----------2----(Wijs)----------
B----------0---------------------
E---------------------------------

Dit betekent dat u de dunne e-snaar open moet aanslaan. Uw ringvinger op het 2e vakje van de B-snaar moet doen. Uw Middelvinger op het 2e vakje van de G-snaar. Uw Wijsvinger op het tweede vakje van de D-snaar en de B-snaar open.

Sanpaulo (29 artikelen)
Laatste update: 11-02-2009
Rubriek: Muziek en Film
Subrubriek: Instrumenten
Per 2021 gaat InfoNu verder als archief. Het grote aanbod van artikelen blijft beschikbaar maar er worden geen nieuwe artikelen meer gepubliceerd en nog maar beperkt geactualiseerd, daardoor kunnen artikelen op bepaalde punten verouderd zijn. Reacties plaatsen bij artikelen is niet meer mogelijk.