InfoNu.nl > Muziek en Film > Diversen > Tabs voor bekende gitaar nummers (intro's)

Tabs voor bekende gitaar nummers (intro's)

Gitaar spelen is een oude kunst wat door een hoop mensen uitgeoefend wordt. Slechts weinig mensen weten het uiteindelijk ver te schoppen in de muziek. Natuurlijk is een gitaar in je handen net zoiets als een vrouwen magneet, dit is handig maar het werkt nog beter als je er ook daadwerkelijk iets op kunt spelen. Daarom staan hier de meest bekende gitaar intros op een rijtje met tabs erbij. Vind je deze nummers echt wat? Klik dan even op de link onder het kopje '"Nadat...ingestudeerd'"

Bekende Gitaar Intro's

Kan je een beetje gitaar spelen? Of wil je graag een beetje opvallen rond een kampvuur op vakantie? Dan moet je natuurlijk een bekend nummer spelen, waar iedereen op mee kan zingen. Om zeker te weten dat dit een succes gaat worden heb ik hier de meest bekende nummers op een rijtje gezet, met de intros van die nummers uitgetabt. Deze tabs komen van internet af en zijn door mij verder bewerkt zodat ze nog speelbaarder zijn.

Smoke on the Water Intro

e|-----------------|---------------|-------------------|------------------|
B|-----------------|---------------|-------------------|------------------|
G|-0---3---5----0|---3---6-5----|-0---3---5----3-|---0--------------|
D|-0---3---5----0|---3---6-5----|-0---3---5----3-|---0--------------|
A|-----------------|---------------|-------------------|------------------|
E|-----------------|---------------|-------------------|------------------|

Knocking On Heavens Door Intro

e|-3---3----------------2-0------|-----------------0------------------------|
B|-3-----3---3------3-----3---3-|----------1--------------1----------------|
G|-0-------0------2----------2---|-0------0---0----------0---0-0------0--|
D|-0------------0-----------------|-0h2----------2------2--------0h2------|
A|---------------------------------|------3-------------------------------3---|
E|-3------------------------------|-------------------------------------------|

Smells Like A Teen Spirit Intro

e|-----------------------|-----------------------|---------------------|-----------------------|
B|-----------------------|-----------------------|---------------------|-----------------------|
G|-----------------3-3--|-0---------------6-6-|-----------------3-3-|-0---------------6-6-|
D|-3--3-3-xxxx-3-3--|-06--6-6-xxxx-6-6-|-3--3-3-xxxx-3-3-|-06--6-6-xxxx-6-6-|
A|-3--3-3-xxxx-1-1--|-06--6-6-xxxx-4-4-|-3--3-3-xxxx-1-1-|-06--6-6-xxxx-4-4-|
E|-1--1-1-xxxx-------|--4--4-4-xxxx-------|-1--1-1-xxxx------|--4--4-4-xxxx------|

Crazy Little Thing Called Love Intro

e|---2-2-3-2---2-2-2--|
B|---3-3-3-3---3-3-3--|
G|---2-2-2-2---2-2-2--|
D|---0-0-0-0---0-0-0--|
A|-----------------------|
E|-----------------------|

Back in Black Intro

e|----------------------------------------|--------------3-0----------------------|
B|------------------3-3-3----------------|--------------------3-0----------------|
G|------------------2-2-2----------2-2--|2-----------------------2^(4)`2p0--|
D|-2----------------0-0-0----------2-2-|2---------------------------------------|
A|-2-------------------------------0-0---|0--------------------------------------|
E|-0--------------------------------------|----------------------------------------|

Nadat je deze intros hebt ingestudeerd...

Je hebt nu als het goed is deze intros een beetje in je hoofd zitten. Als je nog graag de rest van een nummer ook wilt leren, moet je even zoeken naar de titel op Ultimate-Guitar. Daar kun je gemakkelijk van bijna ieder nummer wat er bestaat een tab vinden. Erg handig als je iets leuks hebt gehoord en je wilt het proberen te spelen! Om het zoeken iets makkelijker te maken moet je even kijken naar de artiestnaam hieronder

ArtiestNummer
Deep PurpleSmoke on the Water
AC/DCBack in Black
NirvanaSmells Like A Teen Spirit
Guns & RosesKnockin' on Heavens Door
QueenCrazy Little Thing Called Love

Als je nog geen tabs kunt lezen

Tabs lezen is helemaal niet moeilijk. Je ziet op de tabs hierboven 6 lijntjes staan. Voor die lijntjes staan letters. Deze letters staan voor het basisakkoord van een snaar, dus als de snaar open aangeslagen word. De onderste grote E is je bovenste snaar op je gitaar. Een 0 staat voor een open snaar. Een 2 staat bijvoorbeeld voor het 2e vakje ingedrukt.. een 3 voor het 3e vakje.

Lees verder

© 2009 - 2017 VMusic, het auteursrecht van dit artikel ligt bij de infoteur. Zonder toestemming van de infoteur is vermenigvuldiging verboden.
Gerelateerde artikelen
Tabs - voor gitaar en basTABS zijn een soort codering van grepen, snaren, en fretten op een gitaar of basgitaar. Met TABS kunnen we makkelijk ons…
Deep Purple With Orchestra, GelreDome Arnhem 2 december 2011Deep Purple With Orchestra, GelreDome Arnhem 2 december 2011Deep Purple staat op vrijdag 2 december in het GelreDome XS in Arnhem, zo maakte Mojo Concerts bekend in maart 2011. De…
Bullet For My Valentine; Metal uit WalesBullet For My Valentine; Metal uit WalesBullet For My Valentine, ook wel BFMV genoemd, is een heavy metal band die nog niet zo heel lang bestaat, maar desondank…
Leren gitaar spelenLeren gitaar spelenEen muziekinstrument spelen is fantastisch. Veel mensen vinden dat dit een deel is van een goede opvoeding. De gitaar le…
De Top 2000 van het jaar 2014Elk jaar opnieuw kijken mensen uit naar het moment dat het eerste nummer van de jaarlijkse editie van de top 2000 in dec…

Reageer op het artikel "Tabs voor bekende gitaar nummers (intro's)"

Plaats als eerste een reactie, vraag of opmerking bij dit artikel. Reacties moeten voldoen aan de huisregels van InfoNu.
Meld mij aan voor de tweewekelijkse InfoNu nieuwsbrief
Infoteur: VMusic
Laatste update: 08-06-2010
Rubriek: Muziek en Film
Subrubriek: Diversen
Schrijf mee!